Уроки игры на бас гитаре. Упражнения


В различных бас гитарных школах приводятся довольно большое количество разных упражнений. Они, безусловно, очень полезны, например, басовые линии из очень старых песен, которые Вы никогда не станете слушать. Мы будем исходить из принципа «необходимо и достаточно». Есть несколько упражнений, освоив которые, и включив голову, уже можно добиться достойного результата.

Как ни банально, гаммы. На первом этапе не нужно учить их все, достаточно четырех:

Однооктавная мажорная гамма

G ||----------------|----------------|
D ||----------------|----2---4---5---|
A ||---------2---3--|-5--------------|
E ||-3---5----------|----------------|

Однооктавная минорная гамма

G ||----------------|----------------|
D ||----------------|---------3--5---|
A ||-------------3--|-5---6----------|
E ||-3---5---6------|----------------|

Обратите внимание на закономерность - восьмая нота равна первой ноте гаммы, но на октаву выше. Поэтому всегда легко найти на грифе одинаковые ноты. Через лад, через струну. Это шаблон, благодаря которому можно построить гаммы от любой ноты, начав с соответствующего лада. С (до) мажор - третий лад третьей струны, А (ля) минор - пятый лад четвертой струны. Аппликатура каждой гаммы не меняется.

Хроматический минор и хроматический мажор

Это все полутона в одной позиции. Очевидно, хроматический минор включает в себя все минорные гаммы, мажорный все мажорные. Играете хроматический минор с необходимой тоники, мажор - смещаете позицию на один лад назад.

Старайтесь всегда играть гаммы и вверх и вниз. Строго соблюдайте правило, каждому ладу свой палец.

Упражнения для бас гитаристов

Упражнение «лесенка»

G ||----------------|----------------|----------------|-4---5---6---7--|
D ||----------------|----------------|-3---4---5---6--|----------------|
A ||----------------|-2---3---4---5--|----------------|----------------|
E ||-1---2---3---4--|----------------|----------------|----------------|

G ||----------------|----------------|----------------|
D ||-5---6---7---8--|----------------|----------------|
A ||----------------|-6---7---8---9--|----------------|
E ||----------------|----------------|-7---8---9---10-|

Упражнение «шагающий паук»

G ||-----2-------4--|-2-------4------|
D ||-1-------3------|-----3-------5--|

Упражнение «шагающий паук 2»

G ||-----3-------4--|-2-------3------|
D ||-1-------2------|-----4-------5--|

Будет неплохо проиграть упражнение до 12 го лада. Попробуйте то же самое через струну, на первой и третьей.

Упражнение «прогулка»

Прогулка - это любая законченная музыкальная фраза. Хороша она тем, что является основой любого рок-н-ролла. Например:

G ||----------------|----------------|----------------|----------------|
D ||-------------2--|-3---2----------|-------------3--|-5---3---2------|
A ||-----2---5------|---------5---2--|-----2---5------|-------------5--|
E ||-3--------------|----------------|-3--------------|----------------|

G ||-------------2--|-3---2----------|
D ||-----2---5------|---------5---2--|
A ||-3--------------|----------------|
E ||----------------|----------------|

Очень хорошее упражнение для растяжки и раскоординации (независимости) пальцев.

Поставьте первый палец на пятый лад первой струны. Прижмите струну и не отпускайте. Приклейте его, привяжите, прибейте гвоздем… Играем на четырех ладах по такой схеме: первый, мизинец, второй, мизинец, третий, мизинец.

Перенесите первый палец на вторую струну. Остальные пальцы остаются на первой.

Попробуйте играть хроматические гаммы и лесенку, меняя последовательность пальцев. 1—3—2—4 или 2—3—1—4.

Не забывайте развивать обе руки одновременно. Четко и ровно пробивайте каждую ноту. Начинайте играть двумя пальцами. Чередуйте. Не играйте одним пальцем две ноты подряд. Используйте метроном.

Меняйте размер, пробуйте играть по две, по три каждой ноты. Всем удачи.

Виталий Мякотин © 2014 г.